ISO-10303-21;
HEADER;
FILE_DESCRIPTION (( 'STEP AP203' ),
    '1' );
FILE_NAME ('BK7-LNPBSC-12.7-780.STEP',
    '2021-01-05T02:01:20',
    ( '' ),
    ( '' ),
    'SwSTEP 2.0',
    'SolidWorks 2020',
    '' );
FILE_SCHEMA (( 'CONFIG_CONTROL_DESIGN' ));
ENDSEC;

DATA;
#1 = PERSON_AND_ORGANIZATION_ROLE ( 'design_owner' ) ;
#2 = ORIENTED_EDGE ( 'NONE', *, *, #156, .F. ) ;
#3 = PERSON_AND_ORGANIZATION ( #47, #110 ) ;
#4 = ORIENTED_EDGE ( 'NONE', *, *, #15, .F. ) ;
#5 = EDGE_LOOP ( 'NONE', ( #98, #56, #198 ) ) ;
#6 = AXIS2_PLACEMENT_3D ( 'NONE', #263, #147, #194 ) ;
#7 = ORIENTED_EDGE ( 'NONE', *, *, #239, .F. ) ;
#8 = APPROVAL ( #246, 'UNSPECIFIED' ) ;
#9 = DIRECTION ( 'NONE',  ( 0.000000000000000000, -0.000000000000000000, 1.000000000000000000 ) ) ;
#10 = VERTEX_POINT ( 'NONE', #298 ) ;
#11 = PERSON_AND_ORGANIZATION_ROLE ( 'design_supplier' ) ;
#12 = CARTESIAN_POINT ( 'NONE',  ( -6.349999999999998757, -6.349999999999997868, 6.349999999999999645 ) ) ;
#13 = PLANE ( 'NONE',  #17 ) ;
#14 = ADVANCED_BREP_SHAPE_REPRESENTATION ( 'BK7-LNPBSC-12.7-780', ( #74, #184, #27 ), #292 ) ;
#15 = EDGE_CURVE ( 'NONE', #162, #87, #245, .T. ) ;
#16 = DIRECTION ( 'NONE',  ( -0.000000000000000000, 0.000000000000000000, 1.000000000000000000 ) ) ;
#17 = AXIS2_PLACEMENT_3D ( 'NONE', #305, #16, #306 ) ;
#18 = PLANE ( 'NONE',  #215 ) ;
#19 = EDGE_CURVE ( 'NONE', #55, #60, #28, .T. ) ;
#20 = DIRECTION ( 'NONE',  ( -1.000000000000000000, 2.903408047666378392E-16, 0.000000000000000000 ) ) ;
#21 = APPROVAL ( #99, 'UNSPECIFIED' ) ;
#22 = DIRECTION ( 'NONE',  ( 0.000000000000000000, 0.000000000000000000, 1.000000000000000000 ) ) ;
#23 = DIRECTION ( 'NONE',  ( -6.829619984160658046E-17, 1.000000000000000000, -0.000000000000000000 ) ) ;
#24 = CLOSED_SHELL ( 'NONE', ( #31, #119, #296, #193, #138 ) ) ;
#25 = PERSON_AND_ORGANIZATION_ROLE ( 'creator' ) ;
#26 = ORIENTED_EDGE ( 'NONE', *, *, #239, .T. ) ;
#27 = AXIS2_PLACEMENT_3D ( 'NONE', #54, #253, #271 ) ;
#28 = LINE ( 'NONE', #77, #190 ) ;
#29 = ORIENTED_EDGE ( 'NONE', *, *, #19, .F. ) ;
#30 = ADVANCED_FACE ( 'NONE', ( #58 ), #123, .T. ) ;
#31 = ADVANCED_FACE ( 'NONE', ( #300 ), #177, .F. ) ;
#32 = EDGE_LOOP ( 'NONE', ( #282, #155, #277, #148 ) ) ;
#33 = UNCERTAINTY_MEASURE_WITH_UNIT (LENGTH_MEASURE( 1.000000000000000082E-05 ), #168, 'distance_accuracy_value', 'NONE');
#34 = DIRECTION ( 'NONE',  ( -0.7071067811865475727, 0.7071067811865475727, 0.000000000000000000 ) ) ;
#35 = EDGE_LOOP ( 'NONE', ( #308, #108, #243, #294 ) ) ;
#36 = CALENDAR_DATE ( 2021, 5, 1 ) ;
#37 = VECTOR ( 'NONE', #310, 999.9999999999998863 ) ;
#38 = CARTESIAN_POINT ( 'NONE',  ( 6.349999999999996980, 6.349999999999996980, 6.349999999999999645 ) ) ;
#39 = DIRECTION ( 'NONE',  ( 0.000000000000000000, 0.000000000000000000, -1.000000000000000000 ) ) ;
#40 = LINE ( 'NONE', #164, #57 ) ;
#41 = CARTESIAN_POINT ( 'NONE',  ( -6.349999999999999645, -6.350000000000000533, 6.349999999999999645 ) ) ;
#42 = PRODUCT_RELATED_PRODUCT_CATEGORY ( 'detail', '', ( #143 ) ) ;
#43 = CARTESIAN_POINT ( 'NONE',  ( 6.349999999999996980, 6.349999999999996980, 6.349999999999999645 ) ) ;
#44 = PRODUCT_DEFINITION ( 'UNKNOWN', '', #151, #293 ) ;
#45 = CARTESIAN_POINT ( 'NONE',  ( 6.349999999999998757, 6.349999999999998757, 6.349999999999999645 ) ) ;
#46 =( NAMED_UNIT ( * ) SI_UNIT ( $, .STERADIAN. ) SOLID_ANGLE_UNIT ( ) );
#47 = PERSON ( 'UNSPECIFIED', 'UNSPECIFIED', 'UNSPECIFIED', ('UNSPECIFIED'), ('UNSPECIFIED'), ('UNSPECIFIED') ) ;
#48 = APPLICATION_PROTOCOL_DEFINITION ( 'international standard', 'config_control_design', 1994, #133 ) ;
#49 = CARTESIAN_POINT ( 'NONE',  ( 6.349999999999998757, 6.349999999999998757, 6.349999999999999645 ) ) ;
#50 = AXIS2_PLACEMENT_3D ( 'NONE', #174, #75, #157 ) ;
#51 = APPROVAL_STATUS ( 'not_yet_approved' ) ;
#52 = ORIENTED_EDGE ( 'NONE', *, *, #291, .T. ) ;
#53 = CC_DESIGN_DATE_AND_TIME_ASSIGNMENT ( #171, #218, ( #44 ) ) ;
#54 = CARTESIAN_POINT ( 'NONE',  ( 0.000000000000000000, 0.000000000000000000, 0.000000000000000000 ) ) ;
#55 = VERTEX_POINT ( 'NONE', #49 ) ;
#56 = ORIENTED_EDGE ( 'NONE', *, *, #275, .F. ) ;
#57 = VECTOR ( 'NONE', #137, 1000.000000000000000 ) ;
#58 = FACE_OUTER_BOUND ( 'NONE', #202, .T. ) ;
#59 = LINE ( 'NONE', #159, #37 ) ;
#60 = VERTEX_POINT ( 'NONE', #203 ) ;
#61 = DIRECTION ( 'NONE',  ( -0.7071067811865475727, -0.7071067811865475727, 0.000000000000000000 ) ) ;
#62 = APPROVAL_DATE_TIME ( #154, #232 ) ;
#63 = CLOSED_SHELL ( 'NONE', ( #106, #256, #284, #30, #244 ) ) ;
#64 = PLANE ( 'NONE',  #264 ) ;
#65 = DIRECTION ( 'NONE',  ( 0.000000000000000000, 1.000000000000000000, 0.000000000000000000 ) ) ;
#66 = CARTESIAN_POINT ( 'NONE',  ( 6.349999999999996980, 6.349999999999996980, 6.349999999999999645 ) ) ;
#67 = CARTESIAN_POINT ( 'NONE',  ( -6.349999999999998757, -6.349999999999997868, 6.349999999999999645 ) ) ;
#68 = AXIS2_PLACEMENT_3D ( 'NONE', #127, #226, #172 ) ;
#69 = PLANE ( 'NONE',  #258 ) ;
#70 = PLANE ( 'NONE',  #6 ) ;
#71 = DIRECTION ( 'NONE',  ( 1.000000000000000000, -2.220446049250312588E-16, 0.000000000000000000 ) ) ;
#72 = CC_DESIGN_SECURITY_CLASSIFICATION ( #115, ( #151 ) ) ;
#73 = COORDINATED_UNIVERSAL_TIME_OFFSET ( 8, 0, .AHEAD. ) ;
#74 = MANIFOLD_SOLID_BREP ( 'Í¹Ì¨-À', #24 ) ;
#75 = DIRECTION ( 'NONE',  ( 0.000000000000000000, 0.000000000000000000, 1.000000000000000000 ) ) ;
#76 = APPROVAL_ROLE ( '' ) ;
#77 = CARTESIAN_POINT ( 'NONE',  ( 6.349999999999998757, 6.349999999999998757, 6.349999999999999645 ) ) ;
#78 = PERSON_AND_ORGANIZATION ( #47, #110 ) ;
#79 = ORIENTED_EDGE ( 'NONE', *, *, #295, .F. ) ;
#80 = VECTOR ( 'NONE', #192, 1000.000000000000000 ) ;
#81 = PERSON_AND_ORGANIZATION_ROLE ( 'classification_officer' ) ;
#82 = VERTEX_POINT ( 'NONE', #251 ) ;
#83 = DIRECTION ( 'NONE',  ( -0.000000000000000000, -0.000000000000000000, -1.000000000000000000 ) ) ;
#84 = CARTESIAN_POINT ( 'NONE',  ( 6.349999999999996980, 6.349999999999996980, 6.349999999999999645 ) ) ;
#85 = APPROVAL_PERSON_ORGANIZATION ( #206, #21, #309 ) ;
#86 = CARTESIAN_POINT ( 'NONE',  ( 6.349999999999996980, 6.349999999999996980, 6.349999999999999645 ) ) ;
#87 = VERTEX_POINT ( 'NONE', #283 ) ;
#88 = PERSON_AND_ORGANIZATION_ROLE ( 'creator' ) ;
#89 = LINE ( 'NONE', #257, #255 ) ;
#90 = CARTESIAN_POINT ( 'NONE',  ( -6.349999999999999645, -6.350000000000000533, -6.349999999999999645 ) ) ;
#91 = CARTESIAN_POINT ( 'NONE',  ( -6.349999999999999645, -6.350000000000000533, 6.349999999999999645 ) ) ;
#92 = PRODUCT_DEFINITION_SHAPE ( 'NONE', 'NONE',  #44 ) ;
#93 = LINE ( 'NONE', #96, #240 ) ;
#94 = VECTOR ( 'NONE', #209, 1000.000000000000000 ) ;
#95 = CC_DESIGN_APPROVAL ( #8, ( #115 ) ) ;
#96 = CARTESIAN_POINT ( 'NONE',  ( 6.349999999999996980, 6.349999999999996980, -6.349999999999999645 ) ) ;
#97 = CALENDAR_DATE ( 2021, 5, 1 ) ;
#98 = ORIENTED_EDGE ( 'NONE', *, *, #291, .F. ) ;
#99 = APPROVAL_STATUS ( 'not_yet_approved' ) ;
#100 = ORIENTED_EDGE ( 'NONE', *, *, #101, .F. ) ;
#101 = EDGE_CURVE ( 'NONE', #105, #162, #132, .T. ) ;
#102 = ORIENTED_EDGE ( 'NONE', *, *, #286, .T. ) ;
#103 = VECTOR ( 'NONE', #290, 1000.000000000000114 ) ;
#104 = EDGE_CURVE ( 'NONE', #125, #107, #311, .T. ) ;
#105 = VERTEX_POINT ( 'NONE', #38 ) ;
#106 = ADVANCED_FACE ( 'NONE', ( #233 ), #64, .F. ) ;
#107 = VERTEX_POINT ( 'NONE', #113 ) ;
#108 = ORIENTED_EDGE ( 'NONE', *, *, #142, .F. ) ;
#109 = COORDINATED_UNIVERSAL_TIME_OFFSET ( 8, 0, .AHEAD. ) ;
#110 = ORGANIZATION ( 'UNSPECIFIED', 'UNSPECIFIED', '' ) ;
#111 = CARTESIAN_POINT ( 'NONE',  ( -6.350000000000002309, 6.350000000000001421, 6.349999999999999645 ) ) ;
#112 = AXIS2_PLACEMENT_3D ( 'NONE', #128, #65, #9 ) ;
#113 = CARTESIAN_POINT ( 'NONE',  ( 6.349999999999999645, -6.350000000000000533, -6.349999999999999645 ) ) ;
#114 = CARTESIAN_POINT ( 'NONE',  ( 6.349999999999998757, 6.349999999999998757, 6.349999999999999645 ) ) ;
#115 = SECURITY_CLASSIFICATION ( '', '', #179 ) ;
#116 = CARTESIAN_POINT ( 'NONE',  ( 6.349999999999998757, 6.349999999999998757, -6.349999999999999645 ) ) ;
#117 = PLANE ( 'NONE',  #317 ) ;
#118 = FACE_OUTER_BOUND ( 'NONE', #225, .T. ) ;
#119 = ADVANCED_FACE ( 'NONE', ( #187 ), #313, .F. ) ;
#120 = PERSON_AND_ORGANIZATION ( #47, #110 ) ;
#121 = ORIENTED_EDGE ( 'NONE', *, *, #211, .F. ) ;
#122 = CALENDAR_DATE ( 2021, 5, 1 ) ;
#123 = PLANE ( 'NONE',  #50 ) ;
#124 = CALENDAR_DATE ( 2021, 5, 1 ) ;
#125 = VERTEX_POINT ( 'NONE', #231 ) ;
#126 = ORIENTED_EDGE ( 'NONE', *, *, #160, .F. ) ;
#127 = CARTESIAN_POINT ( 'NONE',  ( 6.349999999999998757, 6.349999999999998757, 6.349999999999999645 ) ) ;
#128 = CARTESIAN_POINT ( 'NONE',  ( -6.349999999999999645, -6.350000000000000533, 6.349999999999999645 ) ) ;
#129 = ORIENTED_EDGE ( 'NONE', *, *, #134, .T. ) ;
#130 = PERSON_AND_ORGANIZATION ( #47, #110 ) ;
#131 = VECTOR ( 'NONE', #279, 1000.000000000000000 ) ;
#132 = LINE ( 'NONE', #136, #139 ) ;
#133 = APPLICATION_CONTEXT ( 'configuration controlled 3d designs of mechanical parts and assemblies' ) ;
#134 = EDGE_CURVE ( 'NONE', #105, #276, #208, .T. ) ;
#135 = AXIS2_PLACEMENT_3D ( 'NONE', #170, #22, #287 ) ;
#136 = CARTESIAN_POINT ( 'NONE',  ( 6.349999999999996980, 6.349999999999996980, 6.349999999999999645 ) ) ;
#137 = DIRECTION ( 'NONE',  ( -0.000000000000000000, -0.000000000000000000, -1.000000000000000000 ) ) ;
#138 = ADVANCED_FACE ( 'NONE', ( #235 ), #13, .F. ) ;
#139 = VECTOR ( 'NONE', #61, 999.9999999999998863 ) ;
#140 = DIRECTION ( 'NONE',  ( -0.000000000000000000, -0.000000000000000000, -1.000000000000000000 ) ) ;
#141 = DIRECTION ( 'NONE',  ( 1.000000000000000000, -2.903408047666378392E-16, 0.000000000000000000 ) ) ;
#142 = EDGE_CURVE ( 'NONE', #82, #107, #40, .T. ) ;
#143 = PRODUCT ( 'BK7-LNPBSC-12.7-780', 'BK7-LNPBSC-12.7-780', '', ( #200 ) ) ;
#144 = LINE ( 'NONE', #45, #103 ) ;
#145 = LINE ( 'NONE', #116, #207 ) ;
#146 = EDGE_CURVE ( 'NONE', #302, #82, #210, .T. ) ;
#147 = DIRECTION ( 'NONE',  ( -1.000000000000000000, -6.829619984160658046E-17, 0.000000000000000000 ) ) ;
#148 = ORIENTED_EDGE ( 'NONE', *, *, #15, .T. ) ;
#149 = DATE_TIME_ROLE ( 'classification_date' ) ;
#150 = ORIENTED_EDGE ( 'NONE', *, *, #224, .T. ) ;
#151 = PRODUCT_DEFINITION_FORMATION_WITH_SPECIFIED_SOURCE ( 'ANY', '', #143, .NOT_KNOWN. ) ;
#152 = DATE_AND_TIME ( #97, #259 ) ;
#153 = ORIENTED_EDGE ( 'NONE', *, *, #286, .F. ) ;
#154 = DATE_AND_TIME ( #122, #212 ) ;
#155 = ORIENTED_EDGE ( 'NONE', *, *, #134, .F. ) ;
#156 = EDGE_CURVE ( 'NONE', #220, #105, #165, .T. ) ;
#157 = DIRECTION ( 'NONE',  ( -2.220446049250312588E-16, 1.000000000000000000, 0.000000000000000000 ) ) ;
#158 = VECTOR ( 'NONE', #23, 1000.000000000000000 ) ;
#159 = CARTESIAN_POINT ( 'NONE',  ( 6.349999999999996980, 6.349999999999996980, -6.349999999999999645 ) ) ;
#160 = EDGE_CURVE ( 'NONE', #302, #125, #254, .T. ) ;
#161 = CARTESIAN_POINT ( 'NONE',  ( 0.000000000000000000, 0.000000000000000000, 6.349999999999999645 ) ) ;
#162 = VERTEX_POINT ( 'NONE', #281 ) ;
#163 = DIRECTION ( 'NONE',  ( 1.000000000000000000, 0.000000000000000000, 0.000000000000000000 ) ) ;
#164 = CARTESIAN_POINT ( 'NONE',  ( 6.349999999999999645, -6.350000000000000533, 6.349999999999999645 ) ) ;
#165 = LINE ( 'NONE', #86, #269 ) ;
#166 = CARTESIAN_POINT ( 'NONE',  ( -6.349999999999998757, -6.349999999999997868, -6.349999999999999645 ) ) ;
#167 = CARTESIAN_POINT ( 'NONE',  ( -6.349999999999999645, -6.350000000000000533, 6.349999999999999645 ) ) ;
#168 =( LENGTH_UNIT ( ) NAMED_UNIT ( * ) SI_UNIT ( .MILLI., .METRE. ) );
#169 = CC_DESIGN_PERSON_AND_ORGANIZATION_ASSIGNMENT ( #217, #25, ( #44 ) ) ;
#170 = CARTESIAN_POINT ( 'NONE',  ( 0.000000000000000000, 0.000000000000000000, -6.349999999999999645 ) ) ;
#171 = DATE_AND_TIME ( #36, #262 ) ;
#172 = DIRECTION ( 'NONE',  ( 0.7071067811865474617, 0.7071067811865474617, 0.000000000000000000 ) ) ;
#173 = DATE_AND_TIME ( #124, #178 ) ;
#174 = CARTESIAN_POINT ( 'NONE',  ( 0.000000000000000000, 0.000000000000000000, 6.349999999999999645 ) ) ;
#175 = ORIENTED_EDGE ( 'NONE', *, *, #275, .T. ) ;
#176 = COORDINATED_UNIVERSAL_TIME_OFFSET ( 8, 0, .AHEAD. ) ;
#177 = PLANE ( 'NONE',  #68 ) ;
#178 = LOCAL_TIME ( 10, 1, 20.00000000000000000, #176 ) ;
#179 = SECURITY_CLASSIFICATION_LEVEL ( 'unclassified' ) ;
#180 = CC_DESIGN_PERSON_AND_ORGANIZATION_ASSIGNMENT ( #120, #11, ( #151 ) ) ;
#181 = ORIENTED_EDGE ( 'NONE', *, *, #236, .T. ) ;
#182 = ORIENTED_EDGE ( 'NONE', *, *, #146, .T. ) ;
#183 = ORIENTED_EDGE ( 'NONE', *, *, #236, .F. ) ;
#184 = MANIFOLD_SOLID_BREP ( '¾µÏ', #63 ) ;
#185 = LINE ( 'NONE', #12, #131 ) ;
#186 = ORIENTED_EDGE ( 'NONE', *, *, #295, .T. ) ;
#187 = FACE_OUTER_BOUND ( 'NONE', #35, .T. ) ;
#188 = DIRECTION ( 'NONE',  ( 0.000000000000000000, 0.000000000000000000, -1.000000000000000000 ) ) ;
#189 = FACE_OUTER_BOUND ( 'NONE', #223, .T. ) ;
#190 = VECTOR ( 'NONE', #83, 1000.000000000000000 ) ;
#191 = CARTESIAN_POINT ( 'NONE',  ( 6.349999999999998757, 6.349999999999998757, -6.349999999999999645 ) ) ;
#192 = DIRECTION ( 'NONE',  ( -6.829619984160658046E-17, 1.000000000000000000, -0.000000000000000000 ) ) ;
#193 = ADVANCED_FACE ( 'NONE', ( #204 ), #18, .T. ) ;
#194 = DIRECTION ( 'NONE',  ( 6.829619984160658046E-17, -1.000000000000000000, 0.000000000000000000 ) ) ;
#195 = APPROVAL_DATE_TIME ( #301, #21 ) ;
#196 = APPROVAL_PERSON_ORGANIZATION ( #78, #232, #197 ) ;
#197 = APPROVAL_ROLE ( '' ) ;
#198 = ORIENTED_EDGE ( 'NONE', *, *, #104, .F. ) ;
#199 = ORIENTED_EDGE ( 'NONE', *, *, #211, .T. ) ;
#200 = MECHANICAL_CONTEXT ( 'NONE', #307, 'mechanical' ) ;
#201 = ORIENTED_EDGE ( 'NONE', *, *, #268, .T. ) ;
#202 = EDGE_LOOP ( 'NONE', ( #100, #2, #121 ) ) ;
#203 = CARTESIAN_POINT ( 'NONE',  ( 6.349999999999998757, 6.349999999999998757, -6.349999999999999645 ) ) ;
#204 = FACE_OUTER_BOUND ( 'NONE', #247, .T. ) ;
#205 = CC_DESIGN_PERSON_AND_ORGANIZATION_ASSIGNMENT ( #3, #1, ( #143 ) ) ;
#206 = PERSON_AND_ORGANIZATION ( #47, #110 ) ;
#207 = VECTOR ( 'NONE', #214, 1000.000000000000114 ) ;
#208 = LINE ( 'NONE', #84, #312 ) ;
#209 = DIRECTION ( 'NONE',  ( 1.000000000000000000, 0.000000000000000000, 0.000000000000000000 ) ) ;
#210 = LINE ( 'NONE', #91, #234 ) ;
#211 = EDGE_CURVE ( 'NONE', #162, #220, #185, .T. ) ;
#212 = LOCAL_TIME ( 10, 1, 20.00000000000000000, #299 ) ;
#213 = CC_DESIGN_PERSON_AND_ORGANIZATION_ASSIGNMENT ( #229, #81, ( #115 ) ) ;
#214 = DIRECTION ( 'NONE',  ( -0.7071067811865474617, -0.7071067811865474617, 0.000000000000000000 ) ) ;
#215 = AXIS2_PLACEMENT_3D ( 'NONE', #161, #230, #163 ) ;
#216 = LINE ( 'NONE', #114, #158 ) ;
#217 = PERSON_AND_ORGANIZATION ( #47, #110 ) ;
#218 = DATE_TIME_ROLE ( 'creation_date' ) ;
#219 = CC_DESIGN_DATE_AND_TIME_ASSIGNMENT ( #152, #149, ( #115 ) ) ;
#220 = VERTEX_POINT ( 'NONE', #111 ) ;
#221 = LOCAL_TIME ( 10, 1, 20.00000000000000000, #73 ) ;
#222 = ORIENTED_EDGE ( 'NONE', *, *, #142, .T. ) ;
#223 = EDGE_LOOP ( 'NONE', ( #175, #29, #7, #222 ) ) ;
#224 = EDGE_CURVE ( 'NONE', #276, #87, #59, .T. ) ;
#225 = EDGE_LOOP ( 'NONE', ( #280, #183, #272, #129 ) ) ;
#226 = DIRECTION ( 'NONE',  ( 0.7071067811865475727, -0.7071067811865475727, 0.000000000000000000 ) ) ;
#227 = DIRECTION ( 'NONE',  ( 0.7071067811865475727, 0.7071067811865475727, 0.000000000000000000 ) ) ;
#228 = EDGE_LOOP ( 'NONE', ( #150, #186, #201 ) ) ;
#229 = PERSON_AND_ORGANIZATION ( #47, #110 ) ;
#230 = DIRECTION ( 'NONE',  ( -0.000000000000000000, 0.000000000000000000, 1.000000000000000000 ) ) ;
#231 = CARTESIAN_POINT ( 'NONE',  ( -6.349999999999999645, -6.350000000000000533, -6.349999999999999645 ) ) ;
#232 = APPROVAL ( #51, 'UNSPECIFIED' ) ;
#233 = FACE_OUTER_BOUND ( 'NONE', #32, .T. ) ;
#234 = VECTOR ( 'NONE', #285, 1000.000000000000000 ) ;
#235 = FACE_OUTER_BOUND ( 'NONE', #5, .T. ) ;
#236 = EDGE_CURVE ( 'NONE', #220, #10, #89, .T. ) ;
#237 = LINE ( 'NONE', #191, #80 ) ;
#238 = PLANE ( 'NONE',  #135 ) ;
#239 = EDGE_CURVE ( 'NONE', #82, #55, #216, .T. ) ;
#240 = VECTOR ( 'NONE', #141, 1000.000000000000000 ) ;
#241 =( NAMED_UNIT ( * ) PLANE_ANGLE_UNIT ( ) SI_UNIT ( $, .RADIAN. ) );
#242 = CALENDAR_DATE ( 2021, 5, 1 ) ;
#243 = ORIENTED_EDGE ( 'NONE', *, *, #146, .F. ) ;
#244 = ADVANCED_FACE ( 'NONE', ( #319 ), #238, .F. ) ;
#245 = LINE ( 'NONE', #278, #249 ) ;
#246 = APPROVAL_STATUS ( 'not_yet_approved' ) ;
#247 = EDGE_LOOP ( 'NONE', ( #102, #182, #26 ) ) ;
#248 = DIRECTION ( 'NONE',  ( 0.000000000000000000, 0.000000000000000000, -1.000000000000000000 ) ) ;
#249 = VECTOR ( 'NONE', #248, 1000.000000000000000 ) ;
#250 = ORIENTED_EDGE ( 'NONE', *, *, #19, .T. ) ;
#251 = CARTESIAN_POINT ( 'NONE',  ( 6.349999999999999645, -6.350000000000000533, 6.349999999999999645 ) ) ;
#252 = EDGE_LOOP ( 'NONE', ( #52, #126, #153, #250 ) ) ;
#253 = DIRECTION ( 'NONE',  ( 0.000000000000000000, 0.000000000000000000, 1.000000000000000000 ) ) ;
#254 = LINE ( 'NONE', #41, #321 ) ;
#255 = VECTOR ( 'NONE', #39, 1000.000000000000000 ) ;
#256 = ADVANCED_FACE ( 'NONE', ( #265 ), #117, .F. ) ;
#257 = CARTESIAN_POINT ( 'NONE',  ( -6.350000000000002309, 6.350000000000001421, 6.349999999999999645 ) ) ;
#258 = AXIS2_PLACEMENT_3D ( 'NONE', #43, #320, #20 ) ;
#259 = LOCAL_TIME ( 10, 1, 20.00000000000000000, #109 ) ;
#260 = DIRECTION ( 'NONE',  ( 1.000000000000000000, -2.903408047666378392E-16, 0.000000000000000000 ) ) ;
#261 = DIRECTION ( 'NONE',  ( 0.000000000000000000, 0.000000000000000000, 1.000000000000000000 ) ) ;
#262 = LOCAL_TIME ( 10, 1, 20.00000000000000000, #274 ) ;
#263 = CARTESIAN_POINT ( 'NONE',  ( 6.349999999999998757, 6.349999999999998757, 6.349999999999999645 ) ) ;
#264 = AXIS2_PLACEMENT_3D ( 'NONE', #66, #34, #227 ) ;
#265 = FACE_OUTER_BOUND ( 'NONE', #304, .T. ) ;
#266 = DIRECTION ( 'NONE',  ( -2.220446049250312588E-16, 1.000000000000000000, 0.000000000000000000 ) ) ;
#267 = APPROVAL_DATE_TIME ( #173, #8 ) ;
#268 = EDGE_CURVE ( 'NONE', #10, #276, #93, .T. ) ;
#269 = VECTOR ( 'NONE', #260, 1000.000000000000000 ) ;
#270 = SHAPE_DEFINITION_REPRESENTATION ( #92, #14 ) ;
#271 = DIRECTION ( 'NONE',  ( 1.000000000000000000, 0.000000000000000000, 0.000000000000000000 ) ) ;
#272 = ORIENTED_EDGE ( 'NONE', *, *, #156, .T. ) ;
#273 = APPROVAL_PERSON_ORGANIZATION ( #297, #8, #76 ) ;
#274 = COORDINATED_UNIVERSAL_TIME_OFFSET ( 8, 0, .AHEAD. ) ;
#275 = EDGE_CURVE ( 'NONE', #107, #60, #237, .T. ) ;
#276 = VERTEX_POINT ( 'NONE', #315 ) ;
#277 = ORIENTED_EDGE ( 'NONE', *, *, #101, .T. ) ;
#278 = CARTESIAN_POINT ( 'NONE',  ( -6.349999999999998757, -6.349999999999997868, 6.349999999999999645 ) ) ;
#279 = DIRECTION ( 'NONE',  ( -2.220446049250312588E-16, 1.000000000000000000, 0.000000000000000000 ) ) ;
#280 = ORIENTED_EDGE ( 'NONE', *, *, #268, .F. ) ;
#281 = CARTESIAN_POINT ( 'NONE',  ( -6.349999999999998757, -6.349999999999997868, 6.349999999999999645 ) ) ;
#282 = ORIENTED_EDGE ( 'NONE', *, *, #224, .F. ) ;
#283 = CARTESIAN_POINT ( 'NONE',  ( -6.349999999999998757, -6.349999999999997868, -6.349999999999999645 ) ) ;
#284 = ADVANCED_FACE ( 'NONE', ( #118 ), #69, .F. ) ;
#285 = DIRECTION ( 'NONE',  ( 1.000000000000000000, 0.000000000000000000, 0.000000000000000000 ) ) ;
#286 = EDGE_CURVE ( 'NONE', #55, #302, #144, .T. ) ;
#287 = DIRECTION ( 'NONE',  ( -2.220446049250312588E-16, 1.000000000000000000, 0.000000000000000000 ) ) ;
#288 = LINE ( 'NONE', #166, #314 ) ;
#289 = CC_DESIGN_APPROVAL ( #21, ( #44 ) ) ;
#290 = DIRECTION ( 'NONE',  ( -0.7071067811865474617, -0.7071067811865474617, 0.000000000000000000 ) ) ;
#291 = EDGE_CURVE ( 'NONE', #60, #125, #145, .T. ) ;
#292 =( GEOMETRIC_REPRESENTATION_CONTEXT ( 3 ) GLOBAL_UNCERTAINTY_ASSIGNED_CONTEXT ( ( #33 ) ) GLOBAL_UNIT_ASSIGNED_CONTEXT ( ( #168, #241, #46 ) ) REPRESENTATION_CONTEXT ( 'NONE', 'WORKASPACE' ) );
#293 = DESIGN_CONTEXT ( 'detailed design', #133, 'design' ) ;
#294 = ORIENTED_EDGE ( 'NONE', *, *, #160, .T. ) ;
#295 = EDGE_CURVE ( 'NONE', #87, #10, #288, .T. ) ;
#296 = ADVANCED_FACE ( 'NONE', ( #189 ), #70, .F. ) ;
#297 = PERSON_AND_ORGANIZATION ( #47, #110 ) ;
#298 = CARTESIAN_POINT ( 'NONE',  ( -6.350000000000002309, 6.350000000000001421, -6.349999999999999645 ) ) ;
#299 = COORDINATED_UNIVERSAL_TIME_OFFSET ( 8, 0, .AHEAD. ) ;
#300 = FACE_OUTER_BOUND ( 'NONE', #252, .T. ) ;
#301 = DATE_AND_TIME ( #242, #221 ) ;
#302 = VERTEX_POINT ( 'NONE', #167 ) ;
#303 = CC_DESIGN_APPROVAL ( #232, ( #151 ) ) ;
#304 = EDGE_LOOP ( 'NONE', ( #79, #4, #199, #181 ) ) ;
#305 = CARTESIAN_POINT ( 'NONE',  ( 0.000000000000000000, 0.000000000000000000, -6.349999999999999645 ) ) ;
#306 = DIRECTION ( 'NONE',  ( 1.000000000000000000, 0.000000000000000000, 0.000000000000000000 ) ) ;
#307 = APPLICATION_CONTEXT ( 'configuration controlled 3d designs of mechanical parts and assemblies' ) ;
#308 = ORIENTED_EDGE ( 'NONE', *, *, #104, .T. ) ;
#309 = APPROVAL_ROLE ( '' ) ;
#310 = DIRECTION ( 'NONE',  ( -0.7071067811865475727, -0.7071067811865475727, 0.000000000000000000 ) ) ;
#311 = LINE ( 'NONE', #90, #94 ) ;
#312 = VECTOR ( 'NONE', #188, 1000.000000000000000 ) ;
#313 = PLANE ( 'NONE',  #112 ) ;
#314 = VECTOR ( 'NONE', #266, 1000.000000000000000 ) ;
#315 = CARTESIAN_POINT ( 'NONE',  ( 6.349999999999996980, 6.349999999999996980, -6.349999999999999645 ) ) ;
#316 = APPLICATION_PROTOCOL_DEFINITION ( 'international standard', 'config_control_design', 1994, #307 ) ;
#317 = AXIS2_PLACEMENT_3D ( 'NONE', #67, #71, #261 ) ;
#318 = CC_DESIGN_PERSON_AND_ORGANIZATION_ASSIGNMENT ( #130, #88, ( #151 ) ) ;
#319 = FACE_OUTER_BOUND ( 'NONE', #228, .T. ) ;
#320 = DIRECTION ( 'NONE',  ( -2.903408047666378392E-16, -1.000000000000000000, 0.000000000000000000 ) ) ;
#321 = VECTOR ( 'NONE', #140, 1000.000000000000000 ) ;
ENDSEC;
END-ISO-10303-21;
